  0
SECTION
  2
HEADER
  9
$ACADVER
  1
AC1009
  9
$INSBASE
 10
0.0
 20
0.0
 30
0.0
  9
$EXTMIN
 10
-0.6558910245641272
 20
1.5752970427032771
 30
0.0
  9
$EXTMAX
 10
6.7958484024481507
 20
18.34920080094583
 30
0.0
  9
$LIMMIN
 10
0.0
 20
0.0
  9
$LIMMAX
 10
12.0
 20
9.0
  9
$ORTHOMODE
 70
     0
  9
$REGENMODE
 70
     1
  9
$FILLMODE
 70
     1
  9
$QTEXTMODE
 70
     0
  9
$MIRRTEXT
 70
     1
  9
$DRAGMODE
 70
     2
  9
$LTSCALE
 40
0.6
  9
$OSMODE
 70
   111
  9
$ATTMODE
 70
     1
  9
$TEXTSIZE
 40
0.2
  9
$TRACEWID
 40
0.05
  9
$TEXTSTYLE
  7
ARIAL
  9
$CLAYER
  8
2-7
  9
$CELTYPE
  6
BYLAYER
  9
$CECOLOR
 62
   256
  9
$DIMSCALE
 40
1.0
  9
$DIMASZ
 40
0.125
  9
$DIMEXO
 40
0.0625
  9
$DIMDLI
 40
0.25
  9
$DIMRND
 40
0.0
  9
$DIMDLE
 40
0.0
  9
$DIMEXE
 40
0.0625
  9
$DIMTP
 40
0.0
  9
$DIMTM
 40
0.0
  9
$DIMTXT
 40
0.125
  9
$DIMCEN
 40
0.09
  9
$DIMTSZ
 40
0.0
  9
$DIMTOL
 70
     0
  9
$DIMLIM
 70
     0
  9
$DIMTIH
 70
     1
  9
$DIMTOH
 70
     1
  9
$DIMSE1
 70
     0
  9
$DIMSE2
 70
     0
  9
$DIMTAD
 70
     0
  9
$DIMZIN
 70
     4
  9
$DIMBLK
  1

  9
$DIMASO
 70
     1
  9
$DIMSHO
 70
     1
  9
$DIMPOST
  1

  9
$DIMAPOST
  1

  9
$DIMALT
 70
     0
  9
$DIMALTD
 70
     2
  9
$DIMALTF
 40
25.399999999999999
  9
$DIMLFAC
 40
1.0
  9
$DIMTOFL
 70
     0
  9
$DIMTVP
 40
0.0
  9
$DIMTIX
 70
     0
  9
$DIMSOXD
 70
     0
  9
$DIMSAH
 70
     0
  9
$DIMBLK1
  1

  9
$DIMBLK2
  1

  9
$DIMSTYLE
  2
STANDARD
  9
$DIMCLRD
 70
   256
  9
$DIMCLRE
 70
   256
  9
$DIMCLRT
 70
   256
  9
$DIMTFAC
 40
1.0
  9
$DIMGAP
 40
0.09
  9
$LUNITS
 70
     2
  9
$LUPREC
 70
     4
  9
$SKETCHINC
 40
0.1
  9
$FILLETRAD
 40
0.5
  9
$AUNITS
 70
     0
  9
$AUPREC
 70
     0
  9
$MENU
  1
.
  9
$ELEVATION
 40
0.0
  9
$PELEVATION
 40
0.0
  9
$THICKNESS
 40
0.0
  9
$LIMCHECK
 70
     0
  9
$BLIPMODE
 70
     0
  9
$CHAMFERA
 40
0.0
  9
$CHAMFERB
 40
0.0
  9
$SKPOLY
 70
     0
  9
$TDCREATE
 40
2452392.3517971062
  9
$TDUPDATE
 40
2452554.459673611
  9
$TDINDWG
 40
0.2135237269
  9
$TDUSRTIMER
 40
0.2135211806
  9
$USRTIMER
 70
     1
  9
$ANGBASE
 50
0.0
  9
$ANGDIR
 70
     0
  9
$PDMODE
 70
     3
  9
$PDSIZE
 40
0.0
  9
$PLINEWID
 40
0.0
  9
$COORDS
 70
     2
  9
$SPLFRAME
 70
     0
  9
$SPLINETYPE
 70
     6
  9
$SPLINESEGS
 70
     8
  9
$ATTDIA
 70
     0
  9
$ATTREQ
 70
     1
  9
$HANDLING
 70
  4097
  9
$HANDSEED
  5
11D3
  9
$SURFTAB1
 70
     6
  9
$SURFTAB2
 70
     6
  9
$SURFTYPE
 70
     6
  9
$SURFU
 70
     6
  9
$SURFV
 70
     6
  9
$UCSNAME
  2

  9
$UCSORG
 10
0.0
 20
0.0
 30
0.0
  9
$UCSXDIR
 10
1.0
 20
0.0
 30
0.0
  9
$UCSYDIR
 10
0.0
 20
1.0
 30
0.0
  9
$PUCSNAME
  2

  9
$PUCSORG
 10
0.0
 20
0.0
 30
0.0
  9
$PUCSXDIR
 10
1.0
 20
0.0
 30
0.0
  9
$PUCSYDIR
 10
0.0
 20
1.0
 30
0.0
  9
$USERI1
 70
     0
  9
$USERI2
 70
     0
  9
$USERI3
 70
     0
  9
$USERI4
 70
     0
  9
$USERI5
 70
     0
  9
$USERR1
 40
1.0
  9
$USERR2
 40
25.399999999999999
  9
$USERR3
 40
0.0
  9
$USERR4
 40
0.0
  9
$USERR5
 40
0.0
  9
$WORLDVIEW
 70
     1
  9
$SHADEDGE
 70
     3
  9
$SHADEDIF
 70
    70
  9
$TILEMODE
 70
     1
  9
$MAXACTVP
 70
    48
  9
$PLIMCHECK
 70
     0
  9
$PEXTMIN
 10
1.0000000000000000E+020
 20
1.0000000000000000E+020
 30
1.0000000000000000E+020
  9
$PEXTMAX
 10
-1.0000000000000000E+020
 20
-1.0000000000000000E+020
 30
-1.0000000000000000E+020
  9
$PLIMMIN
 10
0.0
 20
0.0
  9
$PLIMMAX
 10
12.0
 20
9.0
  9
$UNITMODE
 70
     0
  9
$VISRETAIN
 70
     1
  9
$PLINEGEN
 70
     0
  9
$PSLTSCALE
 70
     1
  0
ENDSEC
  0
SECTION
  2
TABLES
  0
TABLE
  2
VPORT
 70
     2
  0
VPORT
  2
*ACTIVE
 70
     0
 10
0.0
 20
0.0
 11
1.0
 21
1.0
 12
3.0701741116095032
 22
9.9620627129821422
 13
0.0
 23
0.0
 14
0.5
 24
0.5
 15
0.5
 25
0.5
 16
0.0
 26
0.0
 36
1.0
 17
0.0
 27
0.0
 37
0.0
 40
17.230675295039909
 41
1.3665594855305461
 42
50.0
 43
0.0
 44
0.0
 50
0.0
 51
0.0
 71
     0
 72
   100
 73
     1
 74
     2
 75
     0
 76
     0
 77
     0
 78
     0
  0
ENDTAB
  0
TABLE
  2
LTYPE
 70
     3
  0
LTYPE
  2
CONTINUOUS
 70
     0
  3
Solid line
 72
    65
 73
     0
 40
0.0
  0
LTYPE
  2
CENTER
 70
     0
  3
Center ____ _ ____ _ ____ _ ____ _ ____ _ ____
 72
    65
 73
     4
 40
2.0
 49
1.25
 49
-0.25
 49
0.25
 49
-0.25
  0
LTYPE
  2
HIDDEN
 70
     0
  3
Hidden __ __ __ __ __ __ __ __ __ __ __ __ __ _
 72
    65
 73
     2
 40
0.375
 49
0.25
 49
-0.125
  0
ENDTAB
  0
TABLE
  2
LAYER
 70
     6
  0
LAYER
  2
0
 70
     0
 62
     7
  6
CONTINUOUS
  0
LAYER
  2
CENTERLINE
 70
     0
 62
     1
  6
CENTER
  0
LAYER
  2
2-7
 70
     0
 62
     2
  6
CONTINUOUS
  0
LAYER
  2
ADAPTER
 70
     0
 62
     3
  6
CONTINUOUS
  0
LAYER
  2
DRIVE_TANG
 70
     0
 62
     4
  6
CONTINUOUS
  0
LAYER
  2
DRIVE_INPUT
 70
     0
 62
     7
  6
CONTINUOUS
  0
ENDTAB
  0
TABLE
  2
STYLE
 70
     2
  0
STYLE
  2
STANDARD
 70
     0
 40
0.0
 41
1.0
 50
0.0
 71
     0
 42
0.2
  3
txt
  4

  0
STYLE
  2
ARIAL
 70
     0
 40
0.0
 41
1.0
 50
0.0
 71
     0
 42
0.2
  3
txt
  4

  0
ENDTAB
  0
TABLE
  2
VIEW
 70
     0
  0
ENDTAB
  0
TABLE
  2
UCS
 70
     0
  0
ENDTAB
  0
TABLE
  2
APPID
 70
     1
  0
APPID
  2
ACAD
 70
     0
  0
ENDTAB
  0
TABLE
  2
DIMSTYLE
 70
     1
  0
DIMSTYLE
  2
STANDARD
 70
     0
  3

  4

  5

  6

  7

 40
1.0
 41
0.125
 42
0.0625
 43
0.25
 44
0.0625
 45
0.0
 46
0.0
 47
0.0
 48
0.0
140
0.125
141
0.09
142
0.0
143
25.399999999999999
144
1.0
145
0.0
146
1.0
147
0.09
 71
     0
 72
     0
 73
     1
 74
     1
 75
     0
 76
     0
 77
     0
 78
     4
170
     0
171
     2
172
     0
173
     0
174
     0
175
     0
176
   256
177
   256
178
   256
  0
ENDTAB
  0
ENDSEC
  0
SECTION
  2
BLOCKS
  0
BLOCK
  8
0
  2
$MODEL_SPACE
 70
     0
 10
0.0
 20
0.0
 30
0.0
  3
$MODEL_SPACE
  1

  0
ENDBLK
  5
21
  8
0
  0
BLOCK
 67
     1
  8
0
  2
$PAPER_SPACE
 70
     0
 10
0.0
 20
0.0
 30
0.0
  3
$PAPER_SPACE
  1

  0
ENDBLK
  5
1D
 67
     1
  8
0
  0
ENDSEC
  0
SECTION
  2
ENTITIES
  0
LINE
  5
CE
  8
2-7
 10
0.3611443491117726
 20
4.0650609019032728
 30
0.0
 11
5.1060881716787856
 21
4.0650609019032737
 31
0.0
  0
LINE
  5
CF
  8
2-7
 10
0.3611443491117737
 20
7.3233287227032777
 30
0.0
 11
5.1060881716787856
 21
7.3233287227032751
 31
0.0
  0
LINE
  5
18B
  8
ADAPTER
 10
0.6076319403952802
 20
7.7233287355032774
 30
0.0
 11
4.8596005803952833
 21
7.7233287355032774
 31
0.0
  0
LINE
  5
18C
  8
ADAPTER
 10
0.6076319403952802
 20
7.7233287355032774
 30
0.0
 11
0.6076319403952802
 21
7.3233287227032768
 31
0.0
  0
LINE
  5
18D
  8
ADAPTER
 10
4.8596005803952833
 20
7.7233287355032774
 30
0.0
 11
4.8596005803952833
 21
7.3233287227032768
 31
0.0
  0
LINE
  5
1D3
  8
ADAPTER
 10
1.2729862923952799
 20
10.06348629070327
 30
0.0
 11
4.1942462283952811
 21
10.06348629070327
 31
0.0
  0
LINE
  5
1D5
  8
ADAPTER
 10
1.2729862923952799
 20
10.06348629070327
 30
0.0
 11
1.2729862923952799
 21
7.7233287355032774
 31
0.0
  0
LINE
  5
1D6
  8
ADAPTER
 10
4.1942462283952811
 20
10.06348629070327
 30
0.0
 11
4.1942462283952811
 21
9.9650610907032782
 31
0.0
  0
LINE
  5
1D7
  8
ADAPTER
 10
3.6485769195952811
 20
9.9650610907032817
 30
0.0
 11
4.6328289195952808
 21
9.9650610907032764
 31
0.0
  0
LINE
  5
1D8
  8
ADAPTER
 10
4.6328289195952808
 20
9.9650610907032764
 30
0.0
 11
4.6328289195952808
 21
8.636320890703276
 31
0.0
  0
LINE
  5
1D9
  8
ADAPTER
 10
4.6328289195952808
 20
8.636320890703276
 30
0.0
 11
3.6485769195952811
 21
8.636320890703276
 31
0.0
  0
LINE
  5
1DA
  8
ADAPTER
  6
HIDDEN
 10
3.6485769195952811
 20
9.9650610907032764
 30
0.0
 11
3.6485769195952811
 21
8.636320890703276
 31
0.0
  0
LINE
  5
1DB
  8
ADAPTER
 10
4.1942462283952811
 20
8.636320890703276
 30
0.0
 11
4.1942462283952811
 21
7.7233287355032774
 31
0.0
  0
CIRCLE
  5
1DC
  8
ADAPTER
 10
4.3403800913392798
 20
9.3006909907032771
 30
0.0
 40
0.219347573948256
  0
POLYLINE
  5
1DD
  8
ADAPTER
 66
     1
 10
0.0
 20
0.0
 30
0.0
 70
     1
  0
VERTEX
  5
11B7
  8
ADAPTER
 10
4.2039981427153092
 20
9.5369114549552432
 30
0.0
  0
VERTEX
  5
11B8
  8
ADAPTER
 10
4.0676161940913369
 20
9.3006909907032771
 30
0.0
  0
VERTEX
  5
11B9
  8
ADAPTER
 10
4.2039981427153092
 20
9.0644705264513092
 30
0.0
  0
VERTEX
  5
11BA
  8
ADAPTER
 10
4.4767620399632531
 20
9.0644705264513092
 30
0.0
  0
VERTEX
  5
11BB
  8
ADAPTER
 10
4.6131439885872254
 20
9.3006909907032771
 30
0.0
  0
VERTEX
  5
11BC
  8
ADAPTER
 10
4.4767620399632531
 20
9.5369114549552432
 30
0.0
  0
SEQEND
  5
11BD
  8
ADAPTER
  0
LINE
  5
225
  8
ADAPTER
 10
0.6076319403952802
 20
7.3233287227032768
 30
0.0
 11
4.8596005803952833
 21
7.3233287227032768
 31
0.0
  0
LINE
  5
226
  8
ADAPTER
 10
4.6328289195952816
 20
16.764555080945829
 30
0.0
 11
4.6328289195952816
 21
16.006681040945828
 31
0.0
  0
LINE
  5
270
  8
ADAPTER
 10
4.6328289195952816
 20
16.764555080945829
 30
0.0
 11
3.2900399623952459
 21
17.317804414196281
 31
0.0
  0
LINE
  5
271
  8
ADAPTER
 10
4.0184010243043602
 20
14.916913267126599
 30
0.0
 11
3.2900399623952459
 21
14.61681750769538
 31
0.0
  0
LINE
  5
272
  8
ADAPTER
 10
4.6328289195952816
 20
15.170066840945831
 30
0.0
 11
4.0184010243043602
 21
15.170066840945831
 31
0.0
  0
LINE
  5
273
  8
ADAPTER
 10
4.0184010243043602
 20
15.170066840945831
 30
0.0
 11
4.0184010243043602
 21
14.916913267126599
 31
0.0
  0
LINE
  5
276
  8
ADAPTER
 10
4.6131439885872254
 20
15.111011720945831
 30
0.0
 11
4.6131439885872254
 21
14.8650932824719
 31
0.0
  0
LINE
  5
277
  8
ADAPTER
 10
4.4767620399632531
 20
15.111011720945831
 30
0.0
 11
4.4767620399632531
 21
14.865093282471889
 31
0.0
  0
LINE
  5
278
  8
ADAPTER
 10
4.2039981427153092
 20
15.111011720945831
 30
0.0
 11
4.2039981427153092
 21
14.865093282471889
 31
0.0
  0
LINE
  5
279
  8
ADAPTER
 10
4.067616194091336
 20
15.111011720945831
 30
0.0
 11
4.067616194091336
 21
14.8650932824719
 31
0.0
  0
LINE
  5
27B
  8
ADAPTER
 10
4.0479311540913372
 20
15.111011720945831
 30
0.0
 11
4.6328290285872251
 21
15.111011720945831
 31
0.0
  0
LINE
  5
27C
  8
ADAPTER
 10
4.0479311540913372
 20
15.111011720945831
 30
0.0
 11
4.0479311540913372
 21
15.170066840945831
 31
0.0
  0
LINE
  5
27D
  8
ADAPTER
 10
4.6328290285872251
 20
15.111011720945831
 30
0.0
 11
4.6328290285872251
 21
15.170066840945831
 31
0.0
  0
LINE
  5
27F
  8
ADAPTER
 10
4.1358071684033231
 20
14.82900474215926
 30
0.0
 11
4.5449530142752383
 21
14.82900474215926
 31
0.0
  0
ARC
  5
280
  8
ADAPTER
 10
4.1358071684033231
 20
14.9114740200512
 30
0.0
 40
0.0824692778919425
 50
214.2219499523211
 51
325.77805004767828
  0
ARC
  5
282
  8
ADAPTER
 10
4.5449530142752383
 20
14.9114740200512
 30
0.0
 40
0.0824692778919425
 50
214.22194995232161
 51
325.7780500476789
  0
ARC
  5
283
  8
ADAPTER
 10
4.340380091339286
 20
15.10474904325808
 30
0.0
 40
0.2757443010988207
 50
240.356905410038
 51
299.6430945899599
  0
LINE
  5
36A
  8
DRIVE_INPUT
  6
HIDDEN
 10
2.5367658603952812
 20
7.4020688827032757
 30
0.0
 11
2.5367658603952812
 21
7.7957696827032761
 31
0.0
  0
LINE
  5
36B
  8
DRIVE_INPUT
  6
HIDDEN
 10
2.9304666603952811
 20
7.7957696827032761
 30
0.0
 11
2.9304666603952811
 21
7.4020688827032757
 31
0.0
  0
LINE
  5
36C
  8
DRIVE_INPUT
  6
HIDDEN
 10
2.1824351403952811
 20
7.7957696827032761
 30
0.0
 11
2.1824351403952811
 21
7.3233287227032768
 31
0.0
  0
LINE
  5
36D
  8
DRIVE_INPUT
  6
HIDDEN
 10
3.2847973803952808
 20
7.7957696827032761
 30
0.0
 11
3.2847973803952808
 21
7.3233287227032777
 31
0.0
  0
LINE
  5
36E
  8
DRIVE_INPUT
  6
HIDDEN
 10
2.9304666603952811
 20
7.4020688827032757
 30
0.0
 11
2.5367658603952812
 21
7.4020688827032757
 31
0.0
  0
LINE
  5
36F
  8
DRIVE_INPUT
  6
HIDDEN
 10
2.1824351403952811
 20
7.7957696827032761
 30
0.0
 11
2.5367658603952812
 21
7.7957696827032761
 31
0.0
  0
LINE
  5
370
  8
DRIVE_INPUT
  6
HIDDEN
 10
2.9304666603952811
 20
7.7957696827032761
 30
0.0
 11
3.2847973803952808
 21
7.7957696827032761
 31
0.0
  0
LINE
  5
43C
  8
DRIVE_TANG
  6
HIDDEN
 10
2.191096557995281
 20
8.9871083035032768
 30
0.0
 11
3.2761359627952809
 21
8.9871083035032768
 31
0.0
  0
LINE
  5
43D
  8
DRIVE_TANG
  6
HIDDEN
 10
3.2761359627952809
 20
8.9871083035032768
 30
0.0
 11
3.2761359627952809
 21
7.8189980299032769
 31
0.0
  0
LINE
  5
43F
  8
DRIVE_TANG
  6
HIDDEN
 10
2.191096557995281
 20
8.9871083035032768
 30
0.0
 11
2.191096557995281
 21
7.8189980299032769
 31
0.0
  0
LINE
  5
440
  8
DRIVE_TANG
  6
HIDDEN
 10
2.191096557995281
 20
7.8189980299032769
 30
0.0
 11
2.5367658603952812
 21
7.8189980299032751
 31
0.0
  0
LINE
  5
932
  8
2-7
 10
1.3641258913018151
 20
14.01849200094583
 30
0.0
 11
4.1031066294887513
 21
14.01849200094583
 31
0.0
  0
ARC
  5
935
  8
2-7
 10
2.7336162603952809
 20
15.967310960945831
 30
0.0
 40
2.381889839999999
 50
65.09680122758445
 51
114.90319877241519
  0
LINE
  5
9C6
  8
2-7
 10
5.1060881716787856
 20
7.3233287227032751
 30
0.0
 11
5.1060881716787883
 21
4.0650609019032737
 31
0.0
  0
LINE
  5
9C7
  8
2-7
 10
4.1031066294887486
 20
7.323328722703276
 30
0.0
 11
4.1031066294887486
 21
4.0650609019032711
 31
0.0
  0
LINE
  5
9F5
  8
2-7
  6
HIDDEN
 10
3.8162934603952809
 20
7.2052184827032759
 30
0.0
 11
1.6509390603952809
 21
7.2052184827032759
 31
0.0
  0
LINE
  5
9F6
  8
2-7
  6
HIDDEN
 10
1.6509390603952809
 20
7.2052184827032759
 30
0.0
 11
1.6509390603952809
 21
7.323328722703276
 31
0.0
  0
LINE
  5
9F8
  8
2-7
  6
HIDDEN
 10
3.8162934603952809
 20
7.2052184827032759
 30
0.0
 11
3.8162934603952809
 21
7.323328722703276
 31
0.0
  0
LINE
  5
9FC
  8
2-7
  6
HIDDEN
 10
4.5564509643952826
 20
7.3233287227032751
 30
0.0
 11
4.5564509643952844
 21
6.890257842703277
 31
0.0
  0
LINE
  5
9FD
  8
2-7
  6
HIDDEN
 10
4.5367659243952829
 20
7.3233287227032751
 30
0.0
 11
4.536765924395282
 21
6.8508877627032749
 31
0.0
  0
LINE
  5
A00
  8
2-7
  6
HIDDEN
 10
4.3399155243952832
 20
7.3233287227032751
 30
0.0
 11
4.3399155243952841
 21
6.8508877627032749
 31
0.0
  0
LINE
  5
A01
  8
2-7
  6
HIDDEN
 10
4.3202304843952826
 20
7.3233287227032751
 30
0.0
 11
4.3202304843952808
 21
6.8902578427032752
 31
0.0
  0
LINE
  5
A02
  8
2-7
  6
HIDDEN
 10
4.3399155243952841
 20
6.8508877627032749
 30
0.0
 11
4.4383407243952826
 21
6.7784975941480967
 31
0.0
  0
LINE
  5
A03
  8
2-7
  6
HIDDEN
 10
4.536765924395282
 20
6.8508877627032749
 30
0.0
 11
4.4383407243952826
 21
6.7784975941480967
 31
0.0
  0
LINE
  5
A04
  8
2-7
  6
HIDDEN
 10
4.3202304843952808
 20
6.8902578427032752
 30
0.0
 11
4.5564509643952844
 21
6.890257842703277
 31
0.0
  0
LINE
  5
A05
  8
2-7
  6
HIDDEN
 10
1.1470020363952791
 20
6.8902578427032752
 30
0.0
 11
0.9107815563952774
 21
6.890257842703277
 31
0.0
  0
LINE
  5
A06
  8
2-7
  6
HIDDEN
 10
1.1273169963952769
 20
6.8508877627032749
 30
0.0
 11
1.0288917963952771
 21
6.7784975941480967
 31
0.0
  0
LINE
  5
A07
  8
2-7
  6
HIDDEN
 10
1.1470020363952771
 20
7.3233287227032751
 30
0.0
 11
1.1470020363952791
 21
6.8902578427032752
 31
0.0
  0
LINE
  5
A08
  8
2-7
  6
HIDDEN
 10
1.127316996395278
 20
7.3233287227032751
 30
0.0
 11
1.1273169963952769
 21
6.8508877627032749
 31
0.0
  0
LINE
  5
A09
  8
2-7
  6
HIDDEN
 10
0.9304665963952779
 20
7.3233287227032751
 30
0.0
 11
0.9304665963952786
 21
6.8508877627032749
 31
0.0
  0
LINE
  5
A0A
  8
2-7
  6
HIDDEN
 10
0.910781556395278
 20
7.3233287227032751
 30
0.0
 11
0.9107815563952774
 21
6.890257842703277
 31
0.0
  0
LINE
  5
A0B
  8
2-7
  6
HIDDEN
 10
0.9304665963952786
 20
6.8508877627032749
 30
0.0
 11
1.0288917963952771
 21
6.7784975941480967
 31
0.0
  0
LINE
  5
A0C
  8
2-7
  6
HIDDEN
 10
2.6351910603952802
 20
6.8508877627032749
 30
0.0
 11
2.7336162603952801
 21
6.7784975941480967
 31
0.0
  0
LINE
  5
A0D
  8
2-7
  6
HIDDEN
 10
2.851726500395281
 20
6.8902578427032752
 30
0.0
 11
2.6155060203952791
 21
6.890257842703277
 31
0.0
  0
LINE
  5
A0E
  8
2-7
  6
HIDDEN
 10
2.61550602039528
 20
7.3233287227032751
 30
0.0
 11
2.6155060203952791
 21
6.890257842703277
 31
0.0
  0
LINE
  5
A0F
  8
2-7
  6
HIDDEN
 10
2.6351910603952802
 20
7.3233287227032751
 30
0.0
 11
2.6351910603952802
 21
6.8508877627032749
 31
0.0
  0
LINE
  5
A10
  8
2-7
  6
HIDDEN
 10
2.8320414603952799
 20
7.3233287227032751
 30
0.0
 11
2.832041460395279
 21
6.8508877627032749
 31
0.0
  0
LINE
  5
A11
  8
2-7
  6
HIDDEN
 10
2.8517265003952801
 20
7.3233287227032751
 30
0.0
 11
2.851726500395281
 21
6.8902578427032752
 31
0.0
  0
LINE
  5
A12
  8
2-7
  6
HIDDEN
 10
2.832041460395279
 20
6.8508877627032749
 30
0.0
 11
2.7336162603952801
 21
6.7784975941480967
 31
0.0
  0
LINE
  5
A26
  8
DRIVE_INPUT
 10
2.930466660395282
 20
16.48214156130317
 30
0.0
 11
2.930466660395282
 21
15.452480360588501
 31
0.0
  0
LINE
  5
A27
  8
DRIVE_INPUT
 10
2.5367658603952821
 20
15.452480360588501
 30
0.0
 11
2.5367658603952821
 21
16.48214156130317
 31
0.0
  0
CIRCLE
  5
A2B
  8
DRIVE_INPUT
 10
2.7336162603952809
 20
15.967310960945831
 30
0.0
 40
0.5511811200000001
  0
LINE
  5
A35
  8
ADAPTER
 10
1.27351698287321
 20
16.006681040945828
 30
0.0
 11
1.6536249259805951
 21
16.006681040945828
 31
0.0
  0
LINE
  5
A36
  8
ADAPTER
 10
3.8136075948099668
 20
16.006681040945828
 30
0.0
 11
4.6328289195952816
 21
16.006681040945828
 31
0.0
  0
LINE
  5
A37
  8
ADAPTER
 10
3.8136075948099668
 20
15.92794088094583
 30
0.0
 11
4.6328289195952816
 21
15.92794088094583
 31
0.0
  0
LINE
  5
A38
  8
ADAPTER
 10
1.27351698287321
 20
15.92794088094583
 30
0.0
 11
1.6536249259805951
 21
15.92794088094583
 31
0.0
  0
LINE
  5
A39
  8
ADAPTER
 10
4.6328289195952816
 20
15.92794088094583
 30
0.0
 11
4.6328289195952816
 21
15.170066840945831
 31
0.0
  0
LINE
  5
A3B
  8
ADAPTER
  6
HIDDEN
 10
1.6536249259805951
 20
8.9297360223405224
 30
0.0
 11
1.2729862923952799
 21
8.9297360223405224
 31
0.0
  0
LINE
  5
A3C
  8
ADAPTER
  6
HIDDEN
 10
3.8143249563952821
 20
8.9297360223405224
 30
0.0
 11
4.6328289195952799
 21
8.9297360223405224
 31
0.0
  0
CIRCLE
  5
A3E
  8
ADAPTER
 10
2.7336162603952809
 20
15.967310960945831
 30
0.0
 40
1.460629967999999
  0
CIRCLE
  5
A3F
  8
ADAPTER
 10
2.7336162603952809
 20
15.967310960945831
 30
0.0
 40
1.080708695999999
  0
ARC
  5
A42
  8
ADAPTER
 10
2.7336162603952809
 20
15.967310960945831
 30
0.0
 40
2.125984320000001
 50
332.13779732510727
 51
6.4435356908988801
  0
CIRCLE
  5
A43
  8
ADAPTER
 10
2.7336162603952801
 20
17.935757217314919
 30
0.0
 40
0.12795276
  0
CIRCLE
  5
A44
  8
ADAPTER
 10
1.0288917963952839
 20
14.98308783276129
 30
0.0
 40
0.12795276
  0
CIRCLE
  5
A45
  8
ADAPTER
  6
HIDDEN
 10
4.4383407243952826
 20
14.98308783276129
 30
0.0
 40
0.12795276
  0
LINE
  5
A46
  8
ADAPTER
  6
HIDDEN
 10
1.1568445563952841
 20
7.7233287355032774
 30
0.0
 11
1.1568445563952841
 21
7.3233287227032768
 31
0.0
  0
LINE
  5
A47
  8
ADAPTER
  6
HIDDEN
 10
0.9009390363952846
 20
7.7233287355032774
 30
0.0
 11
0.9009390363952846
 21
7.3233287227032768
 31
0.0
  0
LINE
  5
A48
  8
ADAPTER
  6
HIDDEN
 10
4.5662934843952794
 20
7.7233287355032774
 30
0.0
 11
4.5662934843952794
 21
7.3233287227032768
 31
0.0
  0
LINE
  5
A49
  8
ADAPTER
  6
HIDDEN
 10
4.3103879643952778
 20
7.7233287355032774
 30
0.0
 11
4.3103879643952778
 21
7.3233287227032768
 31
0.0
  0
LINE
  5
A4C
  8
ADAPTER
  6
HIDDEN
 10
2.6056635003952811
 20
7.7233287355032774
 30
0.0
 11
2.6056635003952811
 21
7.3233287227032768
 31
0.0
  0
LINE
  5
A4D
  8
ADAPTER
  6
HIDDEN
 10
2.8615690203952808
 20
7.7233287355032774
 30
0.0
 11
2.8615690203952808
 21
7.3233287227032768
 31
0.0
  0
CIRCLE
  5
DC6
  8
CENTERLINE
 10
2.7336162603952832
 20
15.967310960945831
 30
0.0
 40
0.43307088
  0
CIRCLE
  5
DC7
  8
2-7
  6
HIDDEN
 10
2.7336162603952809
 20
16.40038184094583
 30
0.0
 40
0.273622056
  0
CIRCLE
  5
DC8
  8
2-7
  6
HIDDEN
 10
2.7336162603952809
 20
16.99093304094583
 30
0.0
 40
0.8641732559999997
  0
CIRCLE
  5
DC9
  8
2-7
  6
HIDDEN
 10
2.7336162603952809
 20
17.58148424094583
 30
0.0
 40
0.273622056
  0
CIRCLE
  5
DCA
  8
2-7
  6
HIDDEN
 10
2.7336162603952809
 20
16.99093304094583
 30
0.0
 40
0.217519692
  0
POLYLINE
  5
DCB
  8
2-7
  6
HIDDEN
 66
     1
 10
0.0
 20
0.0
 30
0.0
 70
     1
  0
VERTEX
  5
11BE
  8
2-7
  6
HIDDEN
 10
2.499364284395281
 20
16.85568759954403
 30
0.0
  0
VERTEX
  5
11BF
  8
2-7
  6
HIDDEN
 10
2.7336162603952801
 20
16.72044215814223
 30
0.0
  0
VERTEX
  5
11C0
  8
2-7
  6
HIDDEN
 10
2.96786823639528
 20
16.85568759954403
 30
0.0
  0
VERTEX
  5
11C1
  8
2-7
  6
HIDDEN
 10
2.96786823639528
 20
17.12617848234763
 30
0.0
  0
VERTEX
  5
11C2
  8
2-7
  6
HIDDEN
 10
2.7336162603952801
 20
17.26142392374944
 30
0.0
  0
VERTEX
  5
11C3
  8
2-7
  6
HIDDEN
 10
2.499364284395281
 20
17.12617848234764
 30
0.0
  0
SEQEND
  5
11C4
  8
2-7
  6
HIDDEN
  0
CIRCLE
  5
DCC
  8
2-7
  6
HIDDEN
 10
1.847133535240618
 20
15.455499920945829
 30
0.0
 40
0.8641732559999997
  0
CIRCLE
  5
DCD
  8
2-7
  6
HIDDEN
 10
2.3585658766760029
 20
15.75077552094583
 30
0.0
 40
0.273622056
  0
POLYLINE
  5
DCE
  8
2-7
  6
HIDDEN
 66
     1
 10
0.0
 20
0.0
 30
0.0
 70
     1
  0
VERTEX
  5
11C5
  8
2-7
  6
HIDDEN
 10
2.081385511240613
 20
15.32025447954403
 30
0.0
  0
VERTEX
  5
11C6
  8
2-7
  6
HIDDEN
 10
2.081385511240613
 20
15.590745362347629
 30
0.0
  0
VERTEX
  5
11C7
  8
2-7
  6
HIDDEN
 10
1.847133535240614
 20
15.72599080374944
 30
0.0
  0
VERTEX
  5
11C8
  8
2-7
  6
HIDDEN
 10
1.612881559240616
 20
15.590745362347629
 30
0.0
  0
VERTEX
  5
11C9
  8
2-7
  6
HIDDEN
 10
1.612881559240614
 20
15.32025447954403
 30
0.0
  0
VERTEX
  5
11CA
  8
2-7
  6
HIDDEN
 10
1.847133535240614
 20
15.18500903814223
 30
0.0
  0
SEQEND
  5
11CB
  8
2-7
  6
HIDDEN
  0
CIRCLE
  5
DCF
  8
2-7
  6
HIDDEN
 10
1.847133535240618
 20
15.455499920945829
 30
0.0
 40
0.217519692
  0
CIRCLE
  5
DD0
  8
2-7
  6
HIDDEN
 10
1.335701193805233
 20
15.160224320945829
 30
0.0
 40
0.273622056
  0
CIRCLE
  5
DD1
  8
2-7
  6
HIDDEN
 10
3.6200989855499488
 20
15.455499920945829
 30
0.0
 40
0.8641732559999997
  0
CIRCLE
  5
DD2
  8
2-7
  6
HIDDEN
 10
3.1086666441145638
 20
15.75077552094583
 30
0.0
 40
0.273622056
  0
POLYLINE
  5
DD3
  8
2-7
  6
HIDDEN
 66
     1
 10
0.0
 20
0.0
 30
0.0
 70
     1
  0
VERTEX
  5
11CC
  8
2-7
  6
HIDDEN
 10
3.6200989855499501
 20
15.72599080374944
 30
0.0
  0
VERTEX
  5
11CD
  8
2-7
  6
HIDDEN
 10
3.3858470095499511
 20
15.590745362347629
 30
0.0
  0
VERTEX
  5
11CE
  8
2-7
  6
HIDDEN
 10
3.3858470095499511
 20
15.32025447954403
 30
0.0
  0
VERTEX
  5
11CF
  8
2-7
  6
HIDDEN
 10
3.6200989855499479
 20
15.18500903814223
 30
0.0
  0
VERTEX
  5
11D0
  8
2-7
  6
HIDDEN
 10
3.8543509615499518
 20
15.32025447954403
 30
0.0
  0
VERTEX
  5
11D1
  8
2-7
  6
HIDDEN
 10
3.85435096154995
 20
15.590745362347629
 30
0.0
  0
SEQEND
  5
11D2
  8
2-7
  6
HIDDEN
  0
CIRCLE
  5
DD4
  8
2-7
  6
HIDDEN
 10
3.6200989855499488
 20
15.455499920945829
 30
0.0
 40
0.217519692
  0
CIRCLE
  5
DD5
  8
2-7
  6
HIDDEN
 10
4.1315313269853329
 20
15.160224320945829
 30
0.0
 40
0.273622056
  0
CIRCLE
  5
DD6
  8
CENTERLINE
 10
2.7336162603952832
 20
15.967310960945831
 30
0.0
 40
1.6141732799999999
  0
LINE
  5
DD9
  8
2-7
 10
3.897282781953554
 20
3.256497883903279
 30
0.0
 11
3.3429151891463449
 21
3.256497883903279
 31
0.0
  0
LINE
  5
DDA
  8
2-7
 10
3.349608102746346
 20
3.0188994511032781
 30
0.0
 11
3.8905898683535529
 21
3.0188994511032781
 31
0.0
  0
ARC
  5
DDB
  8
2-7
 10
3.6200989855499488
 20
3.0363289136032772
 30
0.0
 40
0.2182168704999997
 50
184.58122008527729
 51
355.41877991472262
  0
LINE
  5
DDC
  8
2-7
 10
2.7559257295499502
 20
3.268210482703279
 30
0.0
 11
4.4842722415499487
 21
3.2682104827032772
 31
0.0
  0
LINE
  5
DDD
  8
2-7
 10
2.8350445881145641
 20
1.575297042703278
 30
0.0
 11
2.8350445881145641
 21
3.2682104827032799
 31
0.0
  0
LINE
  5
DDE
  8
2-7
 10
2.8350445881145641
 20
1.575297042703278
 30
0.0
 11
3.3822887001145641
 21
1.57529704270328
 31
0.0
  0
LINE
  5
DDF
  8
2-7
 10
3.3822887001145641
 20
1.57529704270328
 30
0.0
 11
3.3822887001145641
 21
3.0188994511032781
 31
0.0
  0
LINE
  5
DE0
  8
2-7
 10
3.3429151891463449
 20
3.256497883903279
 30
0.0
 11
3.3429151891463449
 21
3.268210482703279
 31
0.0
  0
LINE
  5
DE1
  8
2-7
 10
3.349608102746346
 20
3.0188994511032781
 30
0.0
 11
3.349608102746346
 21
3.256497883903279
 31
0.0
  0
LINE
  5
DE2
  8
2-7
 10
3.4848535441481481
 20
3.0188994511032781
 30
0.0
 11
3.4848535441481481
 21
3.256497883903279
 31
0.0
  0
LINE
  5
DE3
  8
2-7
 10
3.75534442695175
 20
3.0188994511032781
 30
0.0
 11
3.75534442695175
 21
3.256497883903279
 31
0.0
  0
LINE
  5
DE4
  8
2-7
 10
4.4842722415499487
 20
3.2682104827032772
 30
0.0
 11
4.4842722415499487
 21
4.0650609019032782
 31
0.0
  0
LINE
  5
DE5
  8
2-7
 10
3.897282781953554
 20
3.256497883903279
 30
0.0
 11
3.897282781953554
 21
3.268210482703279
 31
0.0
  0
LINE
  5
DE6
  8
2-7
 10
3.8905898683535529
 20
3.0188994511032781
 30
0.0
 11
3.8905898683535529
 21
3.256497883903279
 31
0.0
  0
LINE
  5
DE8
  8
2-7
 10
2.7559257295499502
 20
3.268210482703279
 30
0.0
 11
2.7559257295499502
 21
4.0650609019032791
 31
0.0
  0
LINE
  5
DE9
  8
2-7
 10
2.7113067912406108
 20
3.268210482703279
 30
0.0
 11
0.9829602792406122
 21
3.2682104827032772
 31
0.0
  0
ARC
  5
DEA
  8
2-7
 10
1.847133535240612
 20
3.0363289136032772
 30
0.0
 40
0.2182168704999997
 50
184.58122008527741
 51
355.41877991472262
  0
LINE
  5
DEB
  8
2-7
 10
2.117624418044215
 20
3.0188994511032781
 30
0.0
 11
1.5766426524370081
 21
3.0188994511032781
 31
0.0
  0
LINE
  5
DEC
  8
2-7
 10
1.5699497388370069
 20
3.256497883903279
 30
0.0
 11
2.1243173316442161
 21
3.256497883903279
 31
0.0
  0
LINE
  5
DED
  8
2-7
 10
2.7113067912406108
 20
3.268210482703279
 30
0.0
 11
2.7113067912406108
 21
4.0650609019032791
 31
0.0
  0
LINE
  5
DEE
  8
2-7
 10
2.632187932675996
 20
1.575297042703278
 30
0.0
 11
2.0849438206759969
 21
1.57529704270328
 31
0.0
  0
LINE
  5
DEF
  8
2-7
 10
2.632187932675996
 20
1.575297042703278
 30
0.0
 11
2.632187932675996
 21
3.2682104827032799
 31
0.0
  0
LINE
  5
DF0
  8
2-7
 10
2.0849438206759969
 20
1.57529704270328
 30
0.0
 11
2.084943820675996
 21
3.0188994511032781
 31
0.0
  0
LINE
  5
DF1
  8
2-7
 10
2.117624418044215
 20
3.0188994511032781
 30
0.0
 11
2.117624418044215
 21
3.256497883903279
 31
0.0
  0
LINE
  5
DF2
  8
2-7
 10
2.1243173316442161
 20
3.256497883903279
 30
0.0
 11
2.1243173316442161
 21
3.268210482703279
 31
0.0
  0
LINE
  5
DF3
  8
2-7
 10
1.982378976642412
 20
3.0188994511032781
 30
0.0
 11
1.982378976642412
 21
3.256497883903279
 31
0.0
  0
LINE
  5
DF4
  8
2-7
 10
0.9829602792406122
 20
3.2682104827032772
 30
0.0
 11
0.9829602792406122
 21
4.0650609019032782
 31
0.0
  0
LINE
  5
DF5
  8
2-7
 10
1.711888093838811
 20
3.0188994511032781
 30
0.0
 11
1.711888093838811
 21
3.256497883903279
 31
0.0
  0
LINE
  5
DF6
  8
2-7
 10
1.5766426524370081
 20
3.0188994511032781
 30
0.0
 11
1.5766426524370081
 21
3.256497883903279
 31
0.0
  0
LINE
  5
DF7
  8
2-7
 10
1.5699497388370069
 20
3.256497883903279
 30
0.0
 11
1.5699497388370069
 21
3.268210482703279
 31
0.0
  0
LINE
  5
DF8
  8
2-7
  6
HIDDEN
 10
3.0072383163952789
 20
1.5752970427032771
 30
0.0
 11
2.4599942043952798
 21
1.5752970427032791
 31
0.0
  0
LINE
  5
DF9
  8
2-7
  6
HIDDEN
 10
3.0072383163952789
 20
1.5752970427032771
 30
0.0
 11
3.0072383163952789
 21
3.268210482703279
 31
0.0
  0
LINE
  5
DFA
  8
2-7
  6
HIDDEN
 10
2.4599942043952798
 20
1.5752970427032791
 30
0.0
 11
2.4599942043952798
 21
3.268210482703279
 31
0.0
  0
ARC
  5
DFE
  8
2-7
 10
2.7336162603952898
 20
15.967310960945831
 30
0.0
 40
2.381889839999999
 50
185.09680122758431
 51
234.90319877241529
  0
ARC
  5
DFF
  8
2-7
 10
2.7336162603952858
 20
15.967310960945831
 30
0.0
 40
2.381889839999999
 50
305.09680122758471
 51
354.90319877241541
  0
LINE
  5
E00
  8
2-7
 10
5.1060881716787856
 20
15.755706991072771
 30
0.0
 11
3.7365978025853299
 21
18.127733890818892
 31
0.0
  0
LINE
  5
E01
  8
2-7
 10
1.7306347182052431
 20
18.127733890818892
 30
0.0
 11
0.3611443491117852
 21
15.755706991072771
 31
0.0
  0
LINE
  5
E02
  8
2-7
 10
1.3641258913018111
 20
7.323328722703276
 30
0.0
 11
1.3641258913018111
 21
4.0650609019032711
 31
0.0
  0
LINE
  5
E03
  8
2-7
 10
0.3611443491117737
 20
7.3233287227032751
 30
0.0
 11
0.3611443491117726
 21
4.0650609019032737
 31
0.0
  0
LINE
  5
E3F
  8
ADAPTER
 10
1.4707171428220429
 20
17.677543444475081
 30
0.0
 11
0.6210619244949864
 21
16.205897437416589
 31
0.0
  0
LINE
  5
E40
  8
ADAPTER
 10
1.8839610420682289
 20
14.01849200094583
 30
0.0
 11
3.583271478722327
 21
14.01849200094583
 31
0.0
  0
LINE
  5
E41
  8
ADAPTER
 10
4.8461705962955763
 20
16.205897437416599
 30
0.0
 11
3.9965153779685338
 21
17.67754344447507
 31
0.0
  0
ARC
  5
E42
  8
ADAPTER
 10
2.7336162603952809
 20
15.967310960945831
 30
0.0
 40
2.125984320000001
 50
173.55646430910139
 51
246.44353569089861
  0
ARC
  5
E43
  8
ADAPTER
 10
2.7336162603952809
 20
15.967310960945831
 30
0.0
 40
2.125984320000001
 50
293.55646430910122
 51
327.62722758350441
  0
ARC
  5
E44
  8
ADAPTER
 10
2.7336162603952809
 20
15.967310960945831
 30
0.0
 40
2.125984320000001
 50
53.556464309100953
 51
126.4435356908984
  0
LINE
  5
F05
  8
DRIVE_TANG
  6
HIDDEN
 10
2.9304666603952811
 20
7.818998029903276
 30
0.0
 11
2.9304666603952811
 21
7.4020688827032757
 31
0.0
  0
LINE
  5
F06
  8
DRIVE_TANG
  6
HIDDEN
 10
2.9304666603952811
 20
7.4020688827032757
 30
0.0
 11
2.5367658603952812
 21
7.4020688827032757
 31
0.0
  0
LINE
  5
F07
  8
DRIVE_TANG
  6
HIDDEN
 10
2.5367658603952812
 20
7.4020688827032757
 30
0.0
 11
2.5367658603952812
 21
7.8189980299032751
 31
0.0
  0
LINE
  5
F08
  8
DRIVE_TANG
  6
HIDDEN
 10
2.9304666603952811
 20
7.818998029903276
 30
0.0
 11
3.2761359627952809
 21
7.8189980299032769
 31
0.0
  0
TEXT
  5
1068
  8
0
 10
-0.6558910245641272
 20
11.522547556408441
 30
0.0
 40
0.125
  1
THE ADAPTER SHOWN IN THIS DRAWING IS ONLY TO ILLUSTRATE A TYPICAL ADAPTER
  7
ARIAL
  0
CIRCLE
  5
10EC
  8
ADAPTER
 10
2.7336162603952809
 20
15.967310960945831
 30
0.0
 40
0.625
  0
CIRCLE
  5
10EE
  8
2-7
  6
HIDDEN
 10
2.7336162603952872
 20
15.967310960945831
 30
0.0
 40
1.0826772
  0
LINE
  5
111F
  8
ADAPTER
  6
HIDDEN
 10
3.8491162603952822
 20
10.06348629070327
 30
0.0
 11
3.8491162603952822
 21
8.1884862907032741
 31
0.0
  0
LINE
  5
1120
  8
ADAPTER
  6
HIDDEN
 10
1.618116260395281
 20
10.06348629070327
 30
0.0
 11
1.618116260395281
 21
8.1884862907032741
 31
0.0
  0
LINE
  5
1121
  8
ADAPTER
  6
HIDDEN
 10
3.8491162603952822
 20
8.1884862907032741
 30
0.0
 11
1.618116260395281
 21
8.1884862907032741
 31
0.0
  0
LINE
  5
1122
  8
ADAPTER
  6
HIDDEN
 10
1.743116260395281
 20
8.1884862907032741
 30
0.0
 11
1.743116260395281
 21
7.4029955978043338
 31
0.0
  0
LINE
  5
1123
  8
ADAPTER
  6
HIDDEN
 10
3.7241162603952822
 20
8.1884862907032741
 30
0.0
 11
3.7241162603952822
 21
7.4029955978043338
 31
0.0
  0
LINE
  5
1124
  8
ADAPTER
  6
HIDDEN
 10
2.1086162603952809
 20
7.2052184827032759
 30
0.0
 11
2.1086162603952809
 21
7.4029955978043338
 31
0.0
  0
LINE
  5
1125
  8
ADAPTER
  6
HIDDEN
 10
3.3586162603952809
 20
7.2052184827032759
 30
0.0
 11
3.3586162603952809
 21
7.4029955978043338
 31
0.0
  0
LINE
  5
1126
  8
ADAPTER
  6
HIDDEN
 10
1.743116260395281
 20
7.4029955978043338
 30
0.0
 11
3.7241162603952822
 21
7.4029955978043338
 31
0.0
  0
LINE
  5
1127
  8
ADAPTER
  6
HIDDEN
 10
1.65093906039528
 20
7.2052184827032759
 30
0.0
 11
3.8162934603952818
 21
7.2052184827032759
 31
0.0
  0
LINE
  5
1128
  8
ADAPTER
  6
HIDDEN
 10
1.65093906039528
 20
7.323328722703276
 30
0.0
 11
1.65093906039528
 21
7.2052184827032759
 31
0.0
  0
LINE
  5
1129
  8
ADAPTER
  6
HIDDEN
 10
3.8162934603952818
 20
7.2052184827032759
 30
0.0
 11
3.8162934603952818
 21
7.323328722703276
 31
0.0
  0
CIRCLE
  5
112A
  8
2-7
 10
2.7336162603952872
 20
15.967310960945831
 30
0.0
 40
1.614173279999997
  0
ENDSEC
  0
EOF
